0
SECTION
999
Created By SkyCiv
2
HEADER
9
AC1012
0
ENDSEC
0
SECTION
2
ENTITIES
0
LINE
8
Section1
10
0
20
0
30
0
11
0
21
0
31
6
0
LINE
8
Section1
10
4.8
20
0
30
0
11
4.8
21
0
31
6
0
LINE
8
Section1
10
9.6
20
0
30
0
11
9.6
21
0
31
6
0
LINE
8
Section1
10
14.4
20
0
30
6
11
14.4
21
0
31
0
0
LINE
8
Section2
10
0
20
0
30
6
11
4.8
21
0
31
6
0
LINE
8
Section2
10
4.8
20
0
30
6
11
9.6
21
0
31
6
0
LINE
8
Section3
10
9.6
20
0
30
6
11
14.4
21
0
31
6
0
LINE
8
Section4
10
0
20
0
30
6
11
0
21
0
31
10.8
0
LINE
8
Section4
10
4.8
20
0
30
10.8
11
4.8
21
0
31
6
0
LINE
8
Section4
10
9.6
20
0
30
10.8
11
9.6
21
0
31
6
0
LINE
8
Section5
10
0
20
0
30
10.8
11
4.8
21
0
31
10.8
0
LINE
8
Section5
10
4.8
20
0
30
10.8
11
9.6
21
0
31
10.8
0
ENDSEC
0
EOF
